Wkudk

Hvordan man spiller akustisk guitar tab

Denne side forklarer hvordan man spiller akustisk guitar tab hurtigt og nemt! De to vigtigste ting, du skal vide, er, at linjerne på halsen af ​​guitaren, kaldes frets (eller søjler), og at hver streng er et bogstav, som følger:

 E --------------------------------------------- (høj streng)
 B ---------------------------------------------
 G ---------------------------------------------
 D ---------------------------------------------
 A ---------------------------------------------
 E --------------------------------------------- (bas streng)



(E) aster
(G) ets
(A) t

Grunden til, at det viser strengene den modsatte vej er, fordi det er sådan du ser dem, når du spiller din guitar.

Nu hvor du har lært det grundlæggende, her er de skridt til at spille faner!

Steps

Hvordan man spiller akustisk guitar tab. Vide hvornår du skal trykke på en snor.
Hvordan man spiller akustisk guitar tab. Vide hvornår du skal trykke på en snor.
  1. 1
    Vide hvornår du skal trykke på en snor. Når du ser et andet nummer end nul, trykke ned i mellem rummet før ærgre af denne streng og spille denne streng. Hvis du ser "0", betyder det, at det er en åben streng, og du behøver ikke have nogen frets nede.
  2. 2
    Hold et beat, når du spiller en sang, eller plukning noter. I modsætning til musik, behøver faner viser ikke, hvor lang tid til at spille eller holde en note. Timingen er op til dig, så lyt til selve sangen, så du ved, hvordan det spilles.
  3. 3
    Genkend akkorder. Hvis der er et par numre stablet oven på hinanden, der er en akkord, eller bare koblede noter, der skal spille sammen. Fret alle disse numre på en gang, og strum strengene at akkord er en del af.
  4. 4
    Lær avancerede teknikker. Når du spiller mere vanskelige ting, såsom hurtige rytmiske mønstre til "soloer" eller bare går op og ned i en skala, kan du ønsker at henvise til hammer-ons eller pull-offs. Hammer-on er, når du plukke en åben streng, eller ærgre allerede holdt nede ærgre og strum det. Så hurtigt placere en anden finger på en fret lige foran den, du er i besiddelse af, eller hvor du kan mageligt nå uden klimprer, eller plukning, strengen. Doing, at baglæns udbytter dig, hvad der kaldes en pull off. Forsøger at gøre dette op og ned en streng et par gange, hvad der lyder godt se, og vænne sig til at gøre dette, det er en ganske nødvendig færdighed, hvis du påtænker at endda spille en simpel sang som "Yankee Doodle".

Tips

  • En anden - Den altid populære Smoke on the Water
 E -------------------------------------
 B-0-3-5-0-3-6,5-0-3-5-3-0 --------------
 G -------------------------------------
 D -------------------------------------
 A -------------------------------------
 E -------------------------------------

  • Her er en nem begyndere fanebladet for "Mary Had a Little Lamb": (venstrehåndet)
 
 E ----------------------------------------
 B ----------------------------------------
 G-4-2-0-2-4-4-4 - 2-2-2 --- 4 - 6 --- 7 ----------
 D ----------------------------------------
 A ----------------------------------------
 E ----------------------------------------

 E ----------------------------------------
 B ----------------------------------------
 G-4-4-4-2-0-2-4-4-4-2-2-4-2-0 ------------
 D ----------------------------------------
 A ----------------------------------------
 E ----------------------------------------
 (Højrehåndet)
 E ----------------------------------------
 A ----------------------------------------
 D ----------------------------------------
 G-4-2-0-2-4-4-4 - 2-2-2 --- 4 ---------------
 B ----------------------------------------
 E ----------------------------------------

 E ----------------------------------------
 A ----------------------------------------
 D ----------------------------------------
 G-4-4-4-2-0-2-4-4-4-2-2-4-2-0 ------------
 B ----------------------------------------
 E ----------------------------------------

  • Vov på andre strenge
 E-2-0-0-5-0-0-2-0-0-5-0-0 ----------------
 B ------------------------- 2-2-0 ----------
 G ------------------------------- 2 --------
 D ----------------------------------------
 A ----------------------------------------
 E ----------------------------------------

  • Hvis du sidder fast, eller laver en fejl, bare holde i gang og aldrig op!
  • Her er en anden enkelt streng rytmeøvelse:
 E-12-0-0-7-0-0-8-0-0-5-0-0 ---------------
 B ----------------------------------------
 G ----------------------------------------
 D ----------------------------------------
 A ----------------------------------------
 E ----------------------------------------

  • Et andet:
 E-12-0-0-0-7-0-0-8-0-0-5-0-0-3-0-0-5-0-0-

  • En mere avanceret fane, featuring hammer-on og pull-off teknikker nævnt ovenfor. De første par noter af Sweet Home Alabama...
E | ------------------------------------------------ - | |
B | ------- 3 --------- 3 ---------- 3 ------------------- - | |
G | --------- 2 --------- 0 -------- 0 --------------- 2P0 - | |
D |-0-0 ------------------------ 0-0 ---- 0h2p0 -------- | |
A | ------------ 3-3 ------------- 2 --- 0p2 ------- 0 ------ | |
E | ----------------------- 3-3 - 3 ------------------- - | |

Advarsler

  • Øv hver eneste dag.
  • Du vil ikke være i stand til at spille alle faner, hvis dette er din første gang at spille en guitar. Ligesom med alt andet, er du nødt til at praktisere at få det bedre.
  • Guitar tabulatur omfatter ikke taktarter at angive tempo. Det er normalt bedst at starte med sange, du kender godt, eller downloade en gratis guitar tabulatur program, så du kan høre musik, som du spiller sammen med det